Copyright © 1998-2017 MV Portal de Cifras  
 
                                                                  
Esta página é parte integrante de MV Portal de Cifras (http://www.mvhp.com.br)
Este material não pode ser publicado, transmitido, reescrito ou redistribuído sem prévia autorização.

O Grave Bater
Tom: D 
Intro: G  A  Bm
E|-7-7-9-10-9-7------|-7----------|----7-7-9-10-9-|-7-9--10-14-12-9-7---|
B|--------------10-8-|--10---7----|---------------|---------------------|
G|-------------------|-----9------|---------------|---------------------|
D|-------------------|------------|---------------|---------------------|
A|-------------------|------------|---------------|---------------------|
E|-------------------|------------|---------------|---------------------|                
Bm                G
É o novo hit do verão
     A    Bm
Pra geral curtir
                      G
Ela joga o bumbum pro alto
         A          Bm
Não dá pra resistir
                       G
Nem tenta pagar de santinha
        A      Bm
Que o clima tá bom
                              G
Vai desce e sobe, quebra e empina
     A           Bm
Mostrando o seu dom
Eu vou de combo, de Jack
             G    A  Bm
Cîroc e Chandon
                      
Olha as novinhas dançando
            G    A  Bm
Em cima do som
E|-10-9-7----7--|----------------|---------------|
B|--------10----|----------------|---------------|
G|--------------|----------------|---------------|
D|--------------|----------------|---------------|
A|--------------|----------------|---------------|
E|--------------|----------------|---------------|
                         G   A  Bm
Eu vou mandar o grave bater, êê, êê
                      G    A  Bm
E quero ver bumbum mexer, êê, êê
                         G    A   Bm
Eu vou mandar o grave bater, êê, êê
                      G    A   Bm
E quero ver bumbum mexer, êê, êê
Encaixa (part. Léo Santana)
Tom: A# 
Intro: Gm  Cm  Gm  Cm
        Gm  Cm  Gm  Cm
Riff
E|-----8-10-11-8----10-----8-10-11-8---10-10-8-10---------|
B|-8-8-----------------8-8------------------------8-------|
G|--------------------------------------------------------|
D|--------------------------------------------------------|
A|--------------------------------------------------------|
E|--------------------------------------------------------|
     Gm
Meu Deus
          Cm
Me fala quem colocou
                  Gm
Essa coisa no mundo
          Cm
Foi planejada de um jeito
                Gm
Que para com tudo
           Cm
A circunferência perfeita
             Gm
Que tem o poder
           Cm
Na medida certa 
Pra te enlouquecer
     Gm
Meu Deus
          Cm
Me fala quem colocou
                  Gm
Essa coisa no mundo
          Cm
Foi planejada de um jeito
                Gm
Que para com tudo
           Cm
A circunferência perfeita
             Gm
Que tem o poder
           Cm
Na medida certa 
Pra te enlouquecer
       Gm
Ela encaixa
           Cm
Com esse grave do beat
       Gm
Ela encaixa
         Cm
Com o cavaco e o pandeiro
       Gm
Ela encaixa
             Cm
Quando essa bunda
            Gm
Começa a jogar
         Cm          Gm
Perfeitamente ela encaixa
       Gm
Ela encaixa
           Cm
Com esse grave do beat
       Gm
Ela encaixa
         Cm
Com o cavaco e o pandeiro
       Gm
Ela encaixa
             Cm
Quando essa bunda
            Gm
Começa a jogar
         Cm          Gm     Cm
Perfeitamente ela encaixa
( Gm  Cm  Gm  Cm )
( Gm  Cm )
     Gm
Meu Deus
          Cm
Me fala quem colocou
                  Gm
Essa coisa no mundo
          Cm
Foi planejada de um jeito
                Gm
Que para com tudo
           Cm
A circunferência perfeita
             Gm
Que tem o poder
           Cm
Na medida certa 
Pra te enlouquecer
     Gm
Meu Deus
          Cm
Me fala quem colocou
                  Gm
Essa coisa no mundo
          Cm
Foi planejada de um jeito
                Gm
Que para com tudo
           Cm
A circunferência perfeita
             Gm
Que tem o poder
           Cm
Na medida certa 
Pra te enlouquecer
       Gm
Ela encaixa
           Cm
Com esse grave do beat
       Gm
Ela encaixa
         Cm
Com o cavaco e o pandeiro
       Gm
Ela encaixa
             Cm
Quando essa bunda
            Gm
Começa a jogar
         Cm          Gm
Perfeitamente ela encaixa
       Gm
Ela encaixa
           Cm
Com esse grave do beat
       Gm
Ela encaixa
         Cm
Com o cavaco e o pandeiro
       Gm
Ela encaixa
             Cm
Quando essa bunda
            Gm
Começa a jogar
         Cm          Gm
Perfeitamente ela encaixa
         Cm
Com o Kevinho
            Gm
Essa mina encaixa
              Cm
Com o Léo Santana
             Gm
Essa mina encaixa
             Cm
Quando essa bunda
            Gm
Começa a jogar
         Cm          Gm     Cm
Perfeitamente ela encaixa
( Gm  Cm  Gm  Cm )
( Gm )
         Cm          Gm
Perfeitamente ela encaixa
Olha a Explosão (part. Wesley Safadão)
Tom: C 
Intro: Am  G  Am  G  Am  G
Parte 1 de 2 (3x)
E|----------8-8-8-------------------------------------|
B|-10-10-10-------8-8-9-10----------------------------|
G|----------------------------------------------------|
D|----------------------------------------------------|
A|----------------------------------------------------|
E|----------------------------------------------------|
Parte 2 de 2
E|-------12-12-12-10----------------------------------|
B|-10-10---------------8-9-10-------------------------|
G|-------------------9--------------------------------|
D|----------------------------------------------------|
A|----------------------------------------------------|
E|----------------------------------------------------|
Primeira Parte:
        Am
Essa novinha é terrorista
É especialista
G
Olha o que ela faz 
No baile funk com as amigas
        Am
Essa novinha é terrorista
É especialista
G
Olha o que ela faz 
No baile funk com as amigas
Am
Olha o que ela faz 
          G
No baile funk com as amigas
Pré-refrão:
Am
É muito explosiva 
     G            Am
Não mexe com ela não
Am
É muito explosiva 
      G             Am
Não brinca com ela não
Olha a explosão
Refrão:
              G                    Am
E quando ela bate com a bunda no chão
              G                    Am
E quando ela mexe com a bunda no chão
              G                    Am
E quando ela joga com a bunda no chão
              G
E quando ela sarra com o bumbum
     Am
No chão, chão, chão, chão, chão
              G                    Am
E quando ela bate com a bunda no chão
              G                    Am
E quando ela mexe com a bunda no chão
              G                    Am
E quando ela joga com a bunda no chão
              G
E quando ela sarra com o bumbum
     Am
No chão, chão, chão, chão, chão
Tô Apaixonado Nessa Mina
Tom: D 
Intro: D G Em
E|-5-2-5-2-0---5-2-5-2-0----5-2-5-2-0---5-2-5-2-0------|
B|-----------------------3------------------------3----|
G|-----------------------------------------------------|
D|-----------------------------------------------------|
A|-----------------------------------------------------|
E|-----------------------------------------------------|
E|-5-2-5-2-0---5-2-5-2-0--- 5-2-5-2-0--5-2-5-2---------|
B|-----------------------3---------------------/7-5h3-3|
G|-----------------------------------------------------|
D|-----------------------------------------------------|
A|-----------------------------------------------------|
E|-----------------------------------------------------|
 D                   G
Tô apaixonado nessa mina
    Em          D
E quando ela empina
                   G Em
Não dá pra não quere____r
 D                   G
Tô apaixonado nessa mina
    Em          D
E quando ela empina
                    G Em
Geral quer se envolve____r
    D
E quando ela chegou no fluxo
Geral parou
 D
Cintura fina e o bumbum grande
 G                   Em
Não teve quem não notou
   D
Cabelo longo ao vento
            G              Em
Troca sentimento por sensação
     D
Faz pose pra foto, tirando onda
      G                    Em
Esqueceu quem feriu o coração
D                        G Em          D
Ela manda um quadradinho,     sensacional
       G             Em
Oh, assim cê mata o pai
D                        G Em          D
Ela manda um quadradinho,     sensacional
     G            Em
Oh, vai que tá legal
 D                   G
Tô apaixonado nessa mina
    Em          D
E quando ela empina
                   G Em
Não dá pra não quere____r
 D                   G
Tô apaixonado nessa mina
    Em          D
E quando ela empina
                    G Em
Geral quer se envolve____r
 D                   G
Tô apaixonado nessa mina
    Em          D
E quando ela empina
                   G Em
Não dá pra não quere____r
 D                   G
Tô apaixonado nessa mina
    Em          D
E quando ela empina
                    G Em
Geral quer se envolve____r
[D G Em]
E|-5-2-5-2-0---5-2-5-2-0----5-2-5-2-0---5-2-5-2-0------|
B|-----------------------3------------------------3----|
G|-----------------------------------------------------|
D|-----------------------------------------------------|
A|-----------------------------------------------------|
E|-----------------------------------------------------|
E|-5-2-5-2-0---5-2-5-2-0--- 5-2-5-2-0--5-2-5-2---------|
B|-----------------------3---------------------/7-5h3-3|
G|-----------------------------------------------------|
D|-----------------------------------------------------|
A|-----------------------------------------------------|
E|-----------------------------------------------------|
D
E quando ela chegou no fluxo
Geral parou
 D
Cintura fina e o bumbum grande
 G                   Em
Não teve quem não notou
   D
Cabelo longo ao vento
            G              Em
Troca sentimento por sensação
     D
Faz pose pra foto, tirando onda
      G                    Em
Esqueceu quem feriu o coração
D                        G Em          D
Ela manda um quadradinho,     sensacional
       G             Em
Oh, assim cê mata o pai
D                        G Em          D
Ela manda um quadradinho,     sensacional
     G            Em
Oh, vai que tá legal
 D                   G
Tô apaixonado nessa mina
    Em          D
E quando ela empina
                   G Em
Não dá pra não quere____r
 D                   G
Tô apaixonado nessa mina
    Em          D
E quando ela empina
                    G Em
Geral quer se envolve____r
 D                   G
Tô apaixonado nessa mina
    Em          D
E quando ela empina
                   G Em
Não dá pra não quere____r
 D                   G
Tô apaixonado nessa mina
    Em          D
E quando ela empina
                    G Em
Geral quer se envolve____r
[D G Em]
E|-5-2-5-2-0---5-2-5-2-0-------------------------------|
B|-------------------------/7-5h3-3--------------------|
G|-----------------------------------------------------|
D|-----------------------------------------------------|
A|-----------------------------------------------------|
E|-----------------------------------------------------|
 
Tumbalatum
Tom: G# 
Solo:
E|-6h8-8-8-8-8-8-8-9-(3x)---9-9-9-9-9-13-13-13-9-9-8-8-|
B|-----------------------------------------------------|
G|-----------------------------------------------------|
D|-----------------------------------------------------|
A|-----------------------------------------------------|
E|-----------------------------------------------------|


  Fm/C
Se pá ela tem vida própria
                C#/G#
Eu tive que reparar
        Fm/C
Que ela desce quando o DJ toca
                 C#/G#
Trava e vai devagar
     
     Fm/C
E se sai, ela fala: Se toca
                 C#/G#
Pode chegar pra lá
       
       Fm/C              C#
Quer espaço pra bunda gostosa
            Fm/C              Fm/G#
Acompanha o grave que vai começar
        Fm/C
Esse bumbum que faz tumbalatum
Esse bumbum que faz tumbalatá
        Fm/C
Esse bumbum que faz tumbalatum
Balatum, balatum, joga ele pro ar
        Fm/C
Esse bumbum que faz tumbalatum
Esse bumbum que faz tumbalatá
        Fm/C
Esse bumbum que faz tumbalatum
Balatum, balatum, joga ele pro ar
Turutum Tum Tum
Tom: C# 
Solo intro 
E|-------------9-11-14-14-11-9-11-9------------------------------|
B|-------------------------------9-9-9-7-7-9---------------------|
G|---------------------------------------------------------------|
D|---------------------------------------------------------------|
A|---------------------------------------------------------------|
E|---------------------------------------------------------------|
                              (2x)
E|-------------9-11-14-14-11-9-11-9------------------------------|
B|------------------------------9-9-9-7-7-7-7-7-7-7-9-9-9-9-7-7-7|
G|---------------------------------------------------------------|
D|---------------------------------------------------------------|
A|---------------------------------------------------------------|
E|---------------------------------------------------------------|
 F#                   G#
   Essa aqui é o lançamento
                  F#   G# A#
 Kevinho que fez pra tu
                G#
 Pra você se acabar
            F#
 E mexer o bumbum
              G#
 Pra você se acabar mulher
           F#
 Mexer o bumbum
              G#
 Pra você se acabar
           F#  G# A#
 E mexer o bumbuuuuuuum
      G#                    F#
 Turutututum vai jogando o bumbum (3X)
F#     G#          F#
 Vai jogando vai sarrando
       G#        F#
 Vai mexendo o bumbum
 
Dog Vagabundo
Tom: A 
Intro: Bm E5 F#5
       Bm
Aí eu posto uma foto
                        E5               F#5
Escrevo "localiza" pra ver se ela me procura
    Bm
Não é que eu esteje feliz desse jeito
    E5               F#5
Cachorro se vira na rua
 Bm
Seria uma ótima ideia
                     E5
Eu voltar pra minha casa
               F#5
Eu voltar pro bombom
Refrão (2x):
       Bm
Aí eu lembro do sorriso dela
       Bm
Aí eu lembro do corpinho dela
       Bm
Aí eu lembro do amor com ela
         E5                 F#5
Ai, meu Deus, como era tão bom
Bm
Ela me nega, diz que não me quer
      E5                F#5
E que eu não passo confiança
       Bm
Se eu vou pro Mandela, eu fico sem ela
    E5               F#5
Já posso perder a esperança
 Bm
De um dia eu voltar pra minha casa
                     E5
Eu voltar pra minha dona
               F#5
Eu voltar pro bombom
Refrão (2x):
       Bm
Aí eu lembro do sorriso dela
       Bm
Aí eu lembro do corpinho dela
       Bm
Aí eu lembro do amor com ela
         E5                 F#5
Ai, meu Deus, como era tão bom
Bm                  E5             F#5
Eu falo que volto, mas eu sei que fico
Bm                          E5         F#5
Eu já percebi que ela não quer nada comigo
Bm                     E5          F#5
Então vou embora, vou me jogar no mundo
 Bm                   E5 F#5
Vou virar um dog vagabundo
 Bm                   E5 F#5
Vou virar um dog vagabundo
Refrão (2x):
       Bm
Aí eu lembro do sorriso dela
       Bm
Aí eu lembro do corpinho dela
       Bm
Aí eu lembro do amor com ela
         E5                 F#5
Ai, meu Deus, como era tão bom
Final: Bm E5 F#5

BACK | RELOAD | FORWARD