Copyright © 1998-2001 MV Portal de Cifras  
                                                                    
Esta página é parte integrante de MV Portal de Cifras (http://www.mvhp.com.br)
Este material não pode ser publicado, transmitido, reescrito ou redistribuído sem prévia autorização. 
Ainda Sou Tão Seu
Tom: C
Intro: C  G  Am  F
[Violão 1]
E|--------------------------------------------|
B|--------------------------------------------|
G|-5p4--5-5-5-5~---------------9--7\5---------|
D|----------------5-5-5-5-5-5-----------5-----|
A|--------------------------------------------|
E|--------------------------------------------|
E|--------------------------------------------|
B|-4h5--4h5--4h5--4\2--2/4~-------------------|
G|--------------------------------------------|
D|--------------------------------------------|
A|--------------------------------------------|
E|--------------------------------------------|
E|----------3h5--3----------------------------|
B|-5-5-5-6-------------5/6-5~-----------------|
G|------------------5-------------------------|
D|--------------------------------------------|
A|--------------------------------------------|
E|--------------------------------------------|
E|----------3h5--3----------------------------|
B|-5-5-5-6-------------5/6-5~-----------------|
G|------------------5-------------------------|
D|--------------------------------------------|
A|--------------------------------------------|
E|--------------------------------------------|
E|--------------------------------------------|
B|--------------------------------------------|
G|--------------------------------------------|
D|-7-7-7--5h7p5--3--2~------------------------|
A|--------------------------------------------|
E|--------------------------------------------|
[Violão 2]
E|--------------------------------------------|
B|-5p4--5-5-5-5~---------------8--6p5---------|
G|----------------5-5-5-5-5-5-----------5-----|
D|--------------------------------------------|
A|--------------------------------------------|
E|--------------------------------------------|
E|--------------------------------------------|
B|-7/9--7h9--7h9--7\5--5/7~-------------------|
G|--------------------------------------------|
D|--------------------------------------------|
A|--------------------------------------------|
E|--------------------------------------------|
E|--------------------------------------------|
B|----------5h6--5----------------------------|
G|-5-5-5-7-------------5h7--5~----------------|
D|------------------7-------------------------|
A|--------------------------------------------|
E|--------------------------------------------|
E|--------------------------------------------|
B|----------5h6--5----------------------------|
G|-5-5-5-7-------------5h7--5~----------------|
D|------------------7-------------------------|
A|--------------------------------------------|
E|--------------------------------------------|
E|--------------------------------------------|
B|--------------------------------------------|
G|--------------------------------------------|
D|-3-3-3--2h3p2-------------------------------|
A|---------------5--3~------------------------|
E|--------------------------------------------|
C
 Era mais fácil ter beijado aquela boca 
Mais cedo na balada 
[Riff 1]
E|--------------------------------------------|
B|--------------------------------------------|
G|--------------------------------------------|
D|--------5-----------------------------------|
A|-3h5/7-----7~-------------------------------|
E|--------------------------------------------|
F
 Era mais fácil ter ficado com a minha turma 
Só enchendo a cara 
[Riff 2]
E|--------------------------------------------|
B|-6/8\6--------------------------------------|
G|-x-------5/7\5------------------------------|
D|-x--------------3/5\3~----------------------|
A|-x------------------------------------------|
E|-x------------------------------------------|
C
 Porque que eu não quis passar meu telefone 
Pra ninguém, outra vez 
[Violão Slide]
E|--------------------------------------------|
B|--------------------------------------------|
G|-7--7/9--9\5--5/7\5~--7--7/9--9\5--5/7\5~---|
D|--------------------------------------------|
A|--------------------------------------------|
E|--------------------------------------------|
F
 Porque que eu corri pro banheiro 
Quando alguém falou seu nome 
[Violão Slide]
E|--------------------------------------------|
B|--------------------------------------------|
G|-7--7/9--9\5--5/7\5~---5\-------------------|
D|-----------------------5\-------------------|
A|--------------------------------------------|
E|--------------------------------------------|
      Am
E chorei, chorei 
   G                                     F
Parece que eu ainda não to pronto pra beber 
Pra sair, pra viver 
 C
Ainda sou tão seu 
                     G
Adivinha quem ainda não te esqueceu 
             Am
Nem meu coração nem eu 
             F
Nem meu coração nem eu 
 C
Ainda sou tão seu 
                     G
Adivinha quem ainda não te esqueceu 
             Am
Nem meu coração nem eu 
             F
Nem meu coração nem eu 
Nem meu coração nem eu
( C  G  Am  F )
      Am
E chorei, chorei 
   G                                     F
Parece que eu ainda não to pronto pra beber 
Pra sair, pra viver 
 C
Ainda sou tão seu 
                     G
Adivinha quem ainda não te esqueceu 
             Am
Nem meu coração nem eu 
             F
Nem meu coração nem eu 
 C
Ainda sou tão seu 
                     G
Adivinha quem ainda não te esqueceu 
             Am
Nem meu coração nem eu 
             F
Nem meu coração nem eu
                    C 
Nem meu coração nem eu
Amor da Sua Cama
Tom: G 
C
E se eu despir minha alma
 D
Será que ela também te excita?
Bm                                          Em
As vezes o amor se disfarça embaixo dos lençóis, reflita 
 C
Tenho vontade de ir mais fundo 
 D
Mas não tenho certeza se ainda posso 
 Bm                                          Em
Certeza eu tenho que posso ir além do que virar seus olhos 
                         C
Além de transpirar seus poros 
                      D
Além de arrancar sua roupa  
                        Bm                                Em
Além de apresentar o caminho que você percorre com a sua boca 
                       C                      D
Mas ó: é só uma ideia boba, é só uma ideinha boba
      C
Tudo bem 
                                 D
Se é pra você me usar o que que tem? 
                        Bm
Só de tá com você fico bem 
                             Em
Posso não ser o amor da sua vida
      C
Tudo bem
                                 D
Se é pra você me usar o que que tem? 
                         Bm
Tanto faz se você não me ama
                             Em
Posso não ser o amor da sua vida
                          C
Mas eu sou o amor da sua cama 
            D
Ai ai ai ai ai
                          Bm
Mas eu sou o amor da sua cama ai ai 
Em
Ai ai
( C  D  Bm  Em )
 
Chave Copia
Tom: G 
Intro: Am  C  G
Am            C                 G
Não vou virar a pagina, o certo é rasgar
                              Am
Não venha me dizer, que ainda dá
                  C                      G
Não quero sentir saudade, nem vontade de ligar
        D
Se eu ligar eu vou querer te ver
        C                        G/B
Se eu te ver eu vou querer voltar
        Am                   C           D
Se eu voltar eu sei que vai resolver na cama
             G                        D
Não adianta nem tentar, não vai ter volta
          Em7
Mas você sabe onde eu moro 
            C/G
Eu sei que você tem a chave copia
Em                   D             C  D
E vai querer entrar, e vai querer ficar
             G                        D
Não adianta nem tentar, não vai ter volta
          Em7
Mas você sabe onde eu moro 
            C/G
Eu sei que você tem a chave copia
Em                   D
E vai querer entrar, e vai querer ficar
       C/G                   G
Vê se para com esse vai e volta


 
A Mala É Falsa
Tom: G#
Intro: G# D#9 Fm7 C#9 D#9

Solo:


E|-----------------------------------------------------|
B|-----------------------------------------------------|
G|-3/5-5-5/6-3/1--3/8-8-8-8-8-8-8-8-6/5-3~-------------|
D|-----------------------------------------------------|
A|-----------------------------------------------------|
E|-----------------------------------------------------|


E|-----------------------------------------------------|
B|-----------------------------------------------------|
G|--3/8-8-8-8-8-8-8-8/13-12-10-------------------------|
D|-----------------------------------------------------|
A|-----------------------------------------------------|
E|-----------------------------------------------------|


E|-----------------------------------------------------|
B|-----------------------------------------------------|
G|-8h10-10-8-8h10-10-10-10-8-6-8-6~-3/6-6-6/8-8-8/13~--|
D|-----------------------------------------------------|
A|-----------------------------------------------------|
E|-----------------------------------------------------|




Fm7                             C#9
É, agora tá com tempo pra me escutar
                             D#9
agora diz que ama e que vai mudar
                                      Fm
eu sei que a cena é forte, vai doer agora
                                C#9
arrume minha mala, eu tô caindo fora

C#9                        Fm7
você não percebeu, mas esfriou
          Fm       D#/G    G#
caiu na rotina, você descuidou
                           D#9
eu só queria um pouco de carinho
         C#9            D#9    G#
fica tranquila, amor, eu tô fingindo

                 G#
A mala é falsa amor
                             D#9
engole o choro, embora eu não vou
                           Fm
agora vê se aprende a dar valor
                           C#9    D#9
matar minha sede de fazer amor uô uô

                 G#
A mala é falsa amor
                             D#9
engole o choro, embora eu não vou
                           Fm
agora vê se aprende a dar valor
                           C#9    D#9 G#
matar minha sede de fazer amor uô uô uô



E|-----------------------------------------------------|
B|-----------------------------------------------------|
G|-3/8-8-8-8-8-8-8-8-6/5-3~-3/8-8-8-8-8-8-8-8/13-12-10-|
D|-----------------------------------------------------|
A|-----------------------------------------------------|
E|-----------------------------------------------------|


E|-----------------------------------------------------|
B|-----------------------------------------------------|
G|-8h10-10-8-8h10-10-10-10-8-6-8-6~-3/6-6-6/8-8-8/13~--|
D|-----------------------------------------------------|
A|-----------------------------------------------------|
E|-----------------------------------------------------|

BACK | RELOAD | FORWARD